  0
SECTION
  2
HEADER
  9
$ACADVER
  1
AC1032
  9
$ACADMAINTVER
 90
4
  9
$DWGCODEPAGE
  3
ANSI_1252
  9
$LASTSAVEDBY
  1
marXact_UNI-GR1
  9
$REQUIREDVERSIONS
160
0
  9
$INSBASE
 10
0.0
 20
0.0
 30
0.0
  9
$EXTMIN
 10
-100
 20
-100
 30
-100
  9
$EXTMAX
 10
100
 20
100
 30
100
  9
$LIMMIN
 10
0.0
 20
0.0
  9
$LIMMAX
 10
420.0
 20
297.0
  9
$ORTHOMODE
 70
0
  9
$REGENMODE
 70
1
  9
$FILLMODE
 70
1
  9
$QTEXTMODE
 70
0
  9
$MIRRTEXT
 70
1
  9
$LTSCALE
 40
1.0
  9
$ATTMODE
 70
1
  9
$TEXTSIZE
 40
2.5
  9
$TRACEWID
 40
1.0
  9
$TEXTSTYLE
  7
Standard
  9
$CLAYER
  8
0
  9
$CELTYPE
  6
ByLayer
  9
$CECOLOR
 62
256
  9
$CELTSCALE
 40
1.0
  9
$DISPSILH
 70
0
  9
$DIMSCALE
 40
1.0
  9
$DIMASZ
 40
2.5
  9
$DIMEXO
 40
0.625
  9
$DIMDLI
 40
3.75
  9
$DIMRND
 40
0.0
  9
$DIMDLE
 40
0.0
  9
$DIMEXE
 40
1.25
  9
$DIMTP
 40
0.0
  9
$DIMTM
 40
0.0
  9
$DIMTXT
 40
2.5
  9
$DIMCEN
 40
2.5
  9
$DIMTSZ
 40
0.0
  9
$DIMTOL
 70
0
  9
$DIMLIM
 70
0
  9
$DIMTIH
 70
0
  9
$DIMTOH
 70
0
  9
$DIMSE1
 70
0
  9
$DIMSE2
 70
0
  9
$DIMTAD
 70
1
  9
$DIMZIN
 70
8
  9
$DIMBLK
  1

  9
$DIMASO
 70
1
  9
$DIMSHO
 70
1
  9
$DIMPOST
  1

  9
$DIMAPOST
  1

  9
$DIMALT
 70
0
  9
$DIMALTD
 70
3
  9
$DIMALTF
 40
0.03937007874
  9
$DIMLFAC
 40
1.0
  9
$DIMTOFL
 70
1
  9
$DIMTVP
 40
0.0
  9
$DIMTIX
 70
0
  9
$DIMSOXD
 70
0
  9
$DIMSAH
 70
0
  9
$DIMBLK1
  1

  9
$DIMBLK2
  1

  9
$DIMSTYLE
  2
ISO-25
  9
$DIMCLRD
 70
0
  9
$DIMCLRE
 70
0
  9
$DIMCLRT
 70
0
  9
$DIMTFAC
 40
1.0
  9
$DIMGAP
 40
0.625
  9
$DIMJUST
 70
0
  9
$DIMSD1
 70
0
  9
$DIMSD2
 70
0
  9
$DIMTOLJ
 70
0
  9
$DIMTZIN
 70
8
  9
$DIMALTZ
 70
0
  9
$DIMALTTZ
 70
0
  9
$DIMUPT
 70
0
  9
$DIMDEC
 70
2
  9
$DIMTDEC
 70
2
  9
$DIMALTU
 70
2
  9
$DIMALTTD
 70
3
  9
$DIMTXSTY
  7
Standard
  9
$DIMAUNIT
 70
0
  9
$DIMADEC
 70
0
  9
$DIMALTRND
 40
0.0
  9
$DIMAZIN
 70
0
  9
$DIMDSEP
 70
44
  9
$DIMATFIT
 70
3
  9
$DIMFRAC
 70
0
  9
$DIMLDRBLK
  1

  9
$DIMLUNIT
 70
2
  9
$DIMLWD
 70
-2
  9
$DIMLWE
 70
-2
  9
$DIMTMOVE
 70
0
  9
$DIMFXL
 40
1.0
  9
$DIMFXLON
 70
0
  9
$DIMJOGANG
 40
0.785398163397
  9
$DIMTFILL
 70
0
  9
$DIMTFILLCLR
 70
0
  9
$DIMARCSYM
 70
0
  9
$DIMLTYPE
  6

  9
$DIMLTEX1
  6

  9
$DIMLTEX2
  6

  9
$DIMTXTDIRECTION
 70
0
  9
$LUNITS
 70
2
  9
$LUPREC
 70
4
  9
$SKETCHINC
 40
1.0
  9
$FILLETRAD
 40
10.0
  9
$AUNITS
 70
0
  9
$AUPREC
 70
2
  9
$MENU
  1
.
  9
$ELEVATION
 40
0.0
  9
$PELEVATION
 40
0.0
  9
$THICKNESS
 40
0.0
  9
$LIMCHECK
 70
0
  9
$CHAMFERA
 40
0.0
  9
$CHAMFERB
 40
0.0
  9
$CHAMFERC
 40
0.0
  9
$CHAMFERD
 40
0.0
  9
$SKPOLY
 70
0
  9
$TDCREATE
 40
2458933.4290625
  9
$TDUCREATE
 40
2458532.153996898
  9
$TDUPDATE
 40
2458933.429074074
  9
$TDUUPDATE
 40
2458532.1544311
  9
$TDINDWG
 40
0.0
  9
$TDUSRTIMER
 40
0.0
  9
$USRTIMER
 70
1
  9
$ANGBASE
 50
0.0
  9
$ANGDIR
 70
0
  9
$PDMODE
 70
0
  9
$PDSIZE
 40
0.0
  9
$PLINEWID
 40
0.0
  9
$SPLFRAME
 70
0
  9
$SPLINETYPE
 70
6
  9
$SPLINESEGS
 70
8
  9
$HANDSEED
  5
14E
  9
$SURFTAB1
 70
6
  9
$SURFTAB2
 70
6
  9
$SURFTYPE
 70
6
  9
$SURFU
 70
6
  9
$SURFV
 70
6
  9
$UCSBASE
  2

  9
$UCSNAME
  2

  9
$UCSORG
 10
0.0
 20
0.0
 30
0.0
  9
$UCSXDIR
 10
1.0
 20
0.0
 30
0.0
  9
$UCSYDIR
 10
0.0
 20
1.0
 30
0.0
  9
$UCSORTHOREF
  2

  9
$UCSORTHOVIEW
 70
0
  9
$UCSORGTOP
 10
0.0
 20
0.0
 30
0.0
  9
$UCSORGBOTTOM
 10
0.0
 20
0.0
 30
0.0
  9
$UCSORGLEFT
 10
0.0
 20
0.0
 30
0.0
  9
$UCSORGRIGHT
 10
0.0
 20
0.0
 30
0.0
  9
$UCSORGFRONT
 10
0.0
 20
0.0
 30
0.0
  9
$UCSORGBACK
 10
0.0
 20
0.0
 30
0.0
  9
$PUCSBASE
  2

  9
$PUCSNAME
  2

  9
$PUCSORG
 10
0.0
 20
0.0
 30
0.0
  9
$PUCSXDIR
 10
1.0
 20
0.0
 30
0.0
  9
$PUCSYDIR
 10
0.0
 20
1.0
 30
0.0
  9
$PUCSORTHOREF
  2

  9
$PUCSORTHOVIEW
 70
0
  9
$PUCSORGTOP
 10
0.0
 20
0.0
 30
0.0
  9
$PUCSORGBOTTOM
 10
0.0
 20
0.0
 30
0.0
  9
$PUCSORGLEFT
 10
0.0
 20
0.0
 30
0.0
  9
$PUCSORGRIGHT
 10
0.0
 20
0.0
 30
0.0
  9
$PUCSORGFRONT
 10
0.0
 20
0.0
 30
0.0
  9
$PUCSORGBACK
 10
0.0
 20
0.0
 30
0.0
  9
$USERI1
 70
0
  9
$USERI2
 70
0
  9
$USERI3
 70
0
  9
$USERI4
 70
0
  9
$USERI5
 70
0
  9
$USERR1
 40
0.0
  9
$USERR2
 40
0.0
  9
$USERR3
 40
0.0
  9
$USERR4
 40
0.0
  9
$USERR5
 40
0.0
  9
$WORLDVIEW
 70
1
  9
$SHADEDGE
 70
3
  9
$SHADEDIF
 70
70
  9
$TILEMODE
 70
1
  9
$MAXACTVP
 70
64
  9
$PINSBASE
 10
0.0
 20
0.0
 30
0.0
  9
$PLIMCHECK
 70
0
  9
$PEXTMIN
 10
1e+20
 20
1e+20
 30
1e+20
  9
$PEXTMAX
 10
-1e+20
 20
-1e+20
 30
-1e+20
  9
$PLIMMIN
 10
0.0
 20
0.0
  9
$PLIMMAX
 10
420.0
 20
297.0
  9
$UNITMODE
 70
0
  9
$VISRETAIN
 70
1
  9
$PLINEGEN
 70
0
  9
$PSLTSCALE
 70
1
  9
$TREEDEPTH
 70
3020
  9
$CMLSTYLE
  2
Standard
  9
$CMLJUST
 70
0
  9
$CMLSCALE
 40
20.0
  9
$PROXYGRAPHICS
 70
1
  9
$MEASUREMENT
 70
1
  9
$CELWEIGHT
370
-1
  9
$ENDCAPS
280
0
  9
$JOINSTYLE
280
0
  9
$LWDISPLAY
290
0
  9
$INSUNITS
 70
6
  9
$HYPERLINKBASE
  1

  9
$STYLESHEET
  1

  9
$XEDIT
290
1
  9
$CEPSNTYPE
380
0
  9
$PSTYLEMODE
290
1
  9
$FINGERPRINTGUID
  2
B8074732-6DB8-11EA-8F0D-0004F30A2F9F
  9
$VERSIONGUID
  2
B89DB4E2-6DB8-11EA-8F0D-0004F30A2F9F
  9
$EXTNAMES
290
1
  9
$PSVPSCALE
 40
0.0
  9
$OLESTARTUP
290
0
  9
$SORTENTS
280
127
  9
$INDEXCTL
280
0
  9
$HIDETEXT
280
1
  9
$XCLIPFRAME
280
2
  9
$HALOGAP
280
0
  9
$OBSCOLOR
 70
257
  9
$OBSLTYPE
280
0
  9
$INTERSECTIONDISPLAY
280
0
  9
$INTERSECTIONCOLOR
 70
257
  9
$DIMASSOC
280
2
  9
$PROJECTNAME
  1

  9
$CAMERADISPLAY
290
0
  9
$LENSLENGTH
 40
50.0
  9
$CAMERAHEIGHT
 40
0.0
  9
$STEPSPERSEC
 40
24.0
  9
$STEPSIZE
 40
100.0
  9
$3DDWFPREC
 40
2.0
  9
$PSOLWIDTH
 40
0.005
  9
$PSOLHEIGHT
 40
0.08
  9
$LOFTANG1
 40
1.570796326795
  9
$LOFTANG2
 40
1.570796326795
  9
$LOFTMAG1
 40
0.0
  9
$LOFTMAG2
 40
0.0
  9
$LOFTPARAM
 70
7
  9
$LOFTNORMALS
280
1
  9
$LATITUDE
 40
37.795
  9
$LONGITUDE
 40
-122.394
  9
$NORTHDIRECTION
 40
0.0
  9
$TIMEZONE
 70
-8000
  9
$LIGHTGLYPHDISPLAY
280
1
  9
$TILEMODELIGHTSYNCH
280
1
  9
$CMATERIAL
347
20
  9
$SOLIDHIST
280
0
  9
$SHOWHIST
280
1
  9
$DWFFRAME
280
2
  9
$DGNFRAME
280
2
  9
$REALWORLDSCALE
290
1
  9
$INTERFERECOLOR
 62
256
  9
$CSHADOW
280
0
  9
$SHADOWPLANELOCATION
 40
0.0
  0
ENDSEC
  0
SECTION
  2
CLASSES
  0
CLASS
  1
ACDBDICTIONARYWDFLT
  2
AcDbDictionaryWithDefault
  3
ObjectDBX Classes
 90
0
 91
0
280
0
281
0
  0
CLASS
  1
SUN
  2
AcDbSun
  3
SCENEOE
 90
1153
 91
0
280
0
281
0
  0
CLASS
  1
VISUALSTYLE
  2
AcDbVisualStyle
  3
ObjectDBX Classes
 90
4095
 91
0
280
0
281
0
  0
CLASS
  1
MATERIAL
  2
AcDbMaterial
  3
ObjectDBX Classes
 90
1153
 91
0
280
0
281
0
  0
CLASS
  1
SCALE
  2
AcDbScale
  3
ObjectDBX Classes
 90
1153
 91
0
280
0
281
0
  0
CLASS
  1
TABLESTYLE
  2
AcDbTableStyle
  3
ObjectDBX Classes
 90
4095
 91
0
280
0
281
0
  0
CLASS
  1
MLEADERSTYLE
  2
AcDbMLeaderStyle
  3
ACDB_MLEADERSTYLE_CLASS
 90
4095
 91
0
280
0
281
0
  0
CLASS
  1
DICTIONARYVAR
  2
AcDbDictionaryVar
  3
ObjectDBX Classes
 90
0
 91
0
280
0
281
0
  0
CLASS
  1
CELLSTYLEMAP
  2
AcDbCellStyleMap
  3
ObjectDBX Classes
 90
1152
 91
0
280
0
281
0
  0
CLASS
  1
MENTALRAYRENDERSETTINGS
  2
AcDbMentalRayRenderSettings
  3
SCENEOE
 90
1024
 91
0
280
0
281
0
  0
CLASS
  1
ACDBDETAILVIEWSTYLE
  2
AcDbDetailViewStyle
  3
ObjectDBX Classes
 90
1025
 91
0
280
0
281
0
  0
CLASS
  1
ACDBSECTIONVIEWSTYLE
  2
AcDbSectionViewStyle
  3
ObjectDBX Classes
 90
1025
 91
0
280
0
281
0
  0
CLASS
  1
RASTERVARIABLES
  2
AcDbRasterVariables
  3
ISM
 90
0
 91
0
280
0
281
0
  0
CLASS
  1
LAYOUT
  2
AcDbLayout
  3
ObjectDBX Classes
 90
0
 91
0
280
0
281
0
  0
CLASS
  1
ACDBPLACEHOLDER
  2
AcDbPlaceHolder
  3
ObjectDBX Classes
 90
0
 91
0
280
0
281
0
  0
ENDSEC
  0
SECTION
  2
TABLES
  0
TABLE
  2
VPORT
  5
1
330
0
100
AcDbSymbolTable
 70
1
  0
VPORT
  5
23
330
1
100
AcDbSymbolTableRecord
100
AcDbViewportTableRecord
  2
*Active
 70
0
 10
0.0
 20
0.0
 11
1.0
 21
1.0
 12
70.0
 22
50.0
 13
0.0
 23
0.0
 14
0.5
 24
0.5
 15
0.5
 25
0.5
 16
0.0
 26
0.0
 36
1.0
 17
0.0
 27
0.0
 37
0.0
 40
1.0
 41
1.34
 42
50.0
 43
0.0
 44
0.0
 50
0.0
 51
0.0
 71
0
 72
1000
 73
1
 74
3
 75
0
 76
0
 77
0
 78
0
281
0
 65
0
146
0.0
  0
ENDTAB
  0
TABLE
  2
LTYPE
  5
7
330
0
100
AcDbSymbolTable
 70
3
  0
LTYPE
  5
24
330
7
100
AcDbSymbolTableRecord
100
AcDbLinetypeTableRecord
  2
ByBlock
 70
0
  3

 72
65
 73
0
 40
0.0
  0
LTYPE
  5
25
330
7
100
AcDbSymbolTableRecord
100
AcDbLinetypeTableRecord
  2
ByLayer
 70
0
  3

 72
65
 73
0
 40
0.0
  0
LTYPE
  5
26
330
7
100
AcDbSymbolTableRecord
100
AcDbLinetypeTableRecord
  2
Continuous
 70
0
  3

 72
65
 73
0
 40
0.0
  0
ENDTAB
  0
TABLE
  2
LAYER
  5
6
330
0
100
AcDbSymbolTable
 70
10
  0
LAYER
  5
27
330
6
100
AcDbSymbolTableRecord
100
AcDbLayerTableRecord
  2
0
 70
0
 62
7
  6
Continuous
370
-3
390
13
347
21
  0
LAYER
  5
28
330
6
100
AcDbSymbolTableRecord
100
AcDbLayerTableRecord
  2
Defpoints
 70
0
 62
7
  6
Continuous
290
0
370
-3
390
13
347
21
  0
LAYER
  5
32
330
6
100
AcDbSymbolTableRecord
100
AcDbLayerTableRecord
  2
point_id
 70
0
 62
3
  6
Continuous
370
-3
390
13
347
21
  0
LAYER
  5
33
330
6
100
AcDbSymbolTableRecord
100
AcDbLayerTableRecord
  2
polyline_id
 70
0
 62
1
  6
Continuous
370
-3
390
13
347
21
  0
LAYER
  5
34
330
6
100
AcDbSymbolTableRecord
100
AcDbLayerTableRecord
  2
polygon_id
 70
0
 62
5
  6
Continuous
370
-3
390
13
347
21
  0
LAYER
  5
35
330
6
100
AcDbSymbolTableRecord
100
AcDbLayerTableRecord
  2
attributes
 70
0
 62
4
  6
Continuous
370
-3
390
13
347
21
  0
LAYER
  5
36
330
6
100
AcDbSymbolTableRecord
100
AcDbLayerTableRecord
  2
Tree
 70
0
 62
3
  6
Continuous
370
-3
390
13
347
21
  0
LAYER
  5
6F
330
6
100
AcDbSymbolTableRecord
100
AcDbLayerTableRecord
  2
Cable
 70
0
 62
5
  6
Continuous
370
-3
390
13
347
21
  0
LAYER
  5
9A
330
6
100
AcDbSymbolTableRecord
100
AcDbLayerTableRecord
  2
Road
 70
0
 62
1
  6
Continuous
370
-3
390
13
347
21
  0
LAYER
  5
12F
330
6
100
AcDbSymbolTableRecord
100
AcDbLayerTableRecord
  2
Ground
 70
0
 62
2
  6
Continuous
370
-3
390
13
347
21
  0
ENDTAB
  0
TABLE
  2
STYLE
  5
9
330
0
100
AcDbSymbolTable
 70
1
  0
STYLE
  5
29
330
9
100
AcDbSymbolTableRecord
100
AcDbTextStyleTableRecord
  2
Standard
 70
0
 40
0.0
 41
1.0
 50
0.0
 71
0
 42
2.5
  3
txt
  4

  0
ENDTAB
  0
TABLE
  2
VIEW
  5
2
330
0
100
AcDbSymbolTable
 70
0
  0
ENDTAB
  0
TABLE
  2
UCS
  5
4
330
0
100
AcDbSymbolTable
 70
0
  0
ENDTAB
  0
TABLE
  2
APPID
  5
5
330
0
100
AcDbSymbolTable
 70
1
  0
APPID
  5
2A
330
5
100
AcDbSymbolTableRecord
100
AcDbRegAppTableRecord
  2
ACAD
 70
0
  0
ENDTAB
  0
TABLE
  2
DIMSTYLE
  5
8
330
0
100
AcDbSymbolTable
 70
1
100
AcDbDimStyleTable
  0
DIMSTYLE
105
2B
330
8
100
AcDbSymbolTableRecord
100
AcDbDimStyleTableRecord
  2
Standard
 70
0
 40
1.0
 41
2.5
 42
0.625
 43
3.75
 44
1.25
 45
0.0
 46
0.0
 47
0.0
 48
0.0
 49
2.5
140
2.5
141
2.5
142
0.0
143
0.03937007874
144
1.0
145
0.0
146
1.0
147
0.625
148
0.0
 69
0
 70
0
 71
0
 72
0
 73
0
 74
0
 75
0
 76
0
 77
1
 78
8
 79
0
170
0
171
3
172
1
173
0
174
0
175
0
176
0
177
0
178
0
179
0
271
0
272
2
273
2
274
3
275
0
276
0
277
2
278
44
279
0
280
0
281
0
282
0
283
0
284
8
285
0
286
0
288
0
289
3
290
0
371
-2
372
-2
  0
ENDTAB
  0
TABLE
  2
BLOCK_RECORD
  5
3
330
0
100
AcDbSymbolTable
 70
3
  0
BLOCK_RECORD
  5
17
330
3
100
AcDbSymbolTableRecord
100
AcDbBlockTableRecord
  2
*Model_Space
340
1A
 70
0
280
1
281
1
  0
BLOCK_RECORD
  5
1B
330
3
100
AcDbSymbolTableRecord
100
AcDbBlockTableRecord
  2
*Paper_Space
340
1E
 70
0
280
1
281
1
  0
BLOCK_RECORD
  5
2D
330
3
100
AcDbSymbolTableRecord
100
AcDbBlockTableRecord
  2
marxact_point
340
0
 70
0
280
1
281
1
  0
ENDTAB
  0
ENDSEC
  0
SECTION
  2
BLOCKS
  0
BLOCK
  5
18
330
17
100
AcDbEntity
  8
0
100
AcDbBlockBegin
  2
*Model_Space
 70
0
 10
0.0
 20
0.0
 30
0.0
  3
*Model_Space
  1

  0
ENDBLK
  5
19
330
17
100
AcDbEntity
  8
0
100
AcDbBlockEnd
  0
BLOCK
  5
1C
330
1B
100
AcDbEntity
  8
0
100
AcDbBlockBegin
  2
*Paper_Space
 70
0
 10
0.0
 20
0.0
 30
0.0
  3
*Paper_Space
  1

  0
ENDBLK
  5
1D
330
1B
100
AcDbEntity
  8
0
100
AcDbBlockEnd
  0
BLOCK
  5
2E
330
2D
100
AcDbEntity
  8
0
100
AcDbBlockBegin
  2
marxact_point
 70
0
 10
0.0
 20
0.0
 30
0.0
  3
marxact_point
  1

  0
LWPOLYLINE
  5
30
330
2D
100
AcDbEntity
  8
0
100
AcDbPolyline
 90
2
 70
0
 43
0.0
 10
-0.25
 20
-0.25
 10
0.25
 20
0.25
  0
LWPOLYLINE
  5
31
330
2D
100
AcDbEntity
  8
0
100
AcDbPolyline
 90
2
 70
0
 43
0.0
 10
-0.25
 20
0.25
 10
0.25
 20
-0.25
  0
ENDBLK
  5
2F
330
2D
100
AcDbEntity
  8
0
100
AcDbBlockEnd
  0
ENDSEC
  0
SECTION
  2
ENTITIES
  0
INSERT
  5
38
330
17
100
AcDbEntity
  8
Tree
100
AcDbBlockReference
  2
marxact_point
 10
141812.2082
 20
469252.5472
 30
3.6403
  0
TEXT
  5
3A
330
17
100
AcDbEntity
  8
point_id
100
AcDbText
 10
141812.2082
 20
469252.5472
 30
3.6403
 40
0.35
  1
    1
 11
141812.2082
 21
469252.5472
 31
3.6403
100
AcDbText
 73
2
  0
TEXT
  5
3B
330
17
100
AcDbEntity
  8
attributes
100
AcDbText
 10
141812.2082
 20
469252.9472
 30
3.6403
 40
0.25
  1
    Height=3.6403
 11
141812.2082
 21
469252.9472
 31
3.6403
100
AcDbText
 73
2
  0
TEXT
  5
3C
330
17
100
AcDbEntity
  8
attributes
100
AcDbText
 10
141812.2082
 20
469253.34719999996
 30
3.6403
 40
0.25
  1
    Diameter=100
 11
141812.2082
 21
469253.34719999996
 31
3.6403
100
AcDbText
 73
2
  0
TEXT
  5
3D
330
17
100
AcDbEntity
  8
attributes
100
AcDbText
 10
141812.2082
 20
469253.7472
 30
3.6403
 40
0.25
  1
    Health=Good
 11
141812.2082
 21
469253.7472
 31
3.6403
100
AcDbText
 73
2
  0
INSERT
  5
3F
330
17
100
AcDbEntity
  8
Tree
100
AcDbBlockReference
  2
marxact_point
 10
141798.1817
 20
469230.4097
 30
3.6036
  0
TEXT
  5
41
330
17
100
AcDbEntity
  8
point_id
100
AcDbText
 10
141798.1817
 20
469230.4097
 30
3.6036
 40
0.35
  1
    2
 11
141798.1817
 21
469230.4097
 31
3.6036
100
AcDbText
 73
2
  0
TEXT
  5
42
330
17
100
AcDbEntity
  8
attributes
100
AcDbText
 10
141798.1817
 20
469230.80970000004
 30
3.6036
 40
0.25
  1
    Height=3.6036
 11
141798.1817
 21
469230.80970000004
 31
3.6036
100
AcDbText
 73
2
  0
TEXT
  5
43
330
17
100
AcDbEntity
  8
attributes
100
AcDbText
 10
141798.1817
 20
469231.2097
 30
3.6036
 40
0.25
  1
    Diameter=100
 11
141798.1817
 21
469231.2097
 31
3.6036
100
AcDbText
 73
2
  0
TEXT
  5
44
330
17
100
AcDbEntity
  8
attributes
100
AcDbText
 10
141798.1817
 20
469231.60970000003
 30
3.6036
 40
0.25
  1
    Health=Good
 11
141798.1817
 21
469231.60970000003
 31
3.6036
100
AcDbText
 73
2
  0
INSERT
  5
46
330
17
100
AcDbEntity
  8
Tree
100
AcDbBlockReference
  2
marxact_point
 10
141801.6099
 20
469236.2984
 30
3.6536
  0
TEXT
  5
48
330
17
100
AcDbEntity
  8
point_id
100
AcDbText
 10
141801.6099
 20
469236.2984
 30
3.6536
 40
0.35
  1
    3
 11
141801.6099
 21
469236.2984
 31
3.6536
100
AcDbText
 73
2
  0
TEXT
  5
49
330
17
100
AcDbEntity
  8
attributes
100
AcDbText
 10
141801.6099
 20
469236.69840000005
 30
3.6536
 40
0.25
  1
    Height=3.6536
 11
141801.6099
 21
469236.69840000005
 31
3.6536
100
AcDbText
 73
2
  0
TEXT
  5
4A
330
17
100
AcDbEntity
  8
attributes
100
AcDbText
 10
141801.6099
 20
469237.0984
 30
3.6536
 40
0.25
  1
    Diameter=100
 11
141801.6099
 21
469237.0984
 31
3.6536
100
AcDbText
 73
2
  0
TEXT
  5
4B
330
17
100
AcDbEntity
  8
attributes
100
AcDbText
 10
141801.6099
 20
469237.49840000004
 30
3.6536
 40
0.25
  1
    Health=Good
 11
141801.6099
 21
469237.49840000004
 31
3.6536
100
AcDbText
 73
2
  0
INSERT
  5
4D
330
17
100
AcDbEntity
  8
Tree
100
AcDbBlockReference
  2
marxact_point
 10
141805.1409
 20
469241.7753
 30
3.6282
  0
TEXT
  5
4F
330
17
100
AcDbEntity
  8
point_id
100
AcDbText
 10
141805.1409
 20
469241.7753
 30
3.6282
 40
0.35
  1
    4
 11
141805.1409
 21
469241.7753
 31
3.6282
100
AcDbText
 73
2
  0
TEXT
  5
50
330
17
100
AcDbEntity
  8
attributes
100
AcDbText
 10
141805.1409
 20
469242.1753
 30
3.6282
 40
0.25
  1
    Height=3.6282
 11
141805.1409
 21
469242.1753
 31
3.6282
100
AcDbText
 73
2
  0
TEXT
  5
51
330
17
100
AcDbEntity
  8
attributes
100
AcDbText
 10
141805.1409
 20
469242.57529999997
 30
3.6282
 40
0.25
  1
    Diameter=100
 11
141805.1409
 21
469242.57529999997
 31
3.6282
100
AcDbText
 73
2
  0
TEXT
  5
52
330
17
100
AcDbEntity
  8
attributes
100
AcDbText
 10
141805.1409
 20
469242.9753
 30
3.6282
 40
0.25
  1
    Health=Good
 11
141805.1409
 21
469242.9753
 31
3.6282
100
AcDbText
 73
2
  0
INSERT
  5
54
330
17
100
AcDbEntity
  8
Tree
100
AcDbBlockReference
  2
marxact_point
 10
141808.2299
 20
469246.6987
 30
3.6419
  0
TEXT
  5
56
330
17
100
AcDbEntity
  8
point_id
100
AcDbText
 10
141808.2299
 20
469246.6987
 30
3.6419
 40
0.35
  1
    5
 11
141808.2299
 21
469246.6987
 31
3.6419
100
AcDbText
 73
2
  0
TEXT
  5
57
330
17
100
AcDbEntity
  8
attributes
100
AcDbText
 10
141808.2299
 20
469247.09870000003
 30
3.6419
 40
0.25
  1
    Height=3.6419
 11
141808.2299
 21
469247.09870000003
 31
3.6419
100
AcDbText
 73
2
  0
TEXT
  5
58
330
17
100
AcDbEntity
  8
attributes
100
AcDbText
 10
141808.2299
 20
469247.4987
 30
3.6419
 40
0.25
  1
    Diameter=100
 11
141808.2299
 21
469247.4987
 31
3.6419
100
AcDbText
 73
2
  0
TEXT
  5
59
330
17
100
AcDbEntity
  8
attributes
100
AcDbText
 10
141808.2299
 20
469247.8987
 30
3.6419
 40
0.25
  1
    Health=Bad
 11
141808.2299
 21
469247.8987
 31
3.6419
100
AcDbText
 73
2
  0
INSERT
  5
5B
330
17
100
AcDbEntity
  8
Tree
100
AcDbBlockReference
  2
marxact_point
 10
141801.0108
 20
469225.961
 30
3.5653
  0
TEXT
  5
5D
330
17
100
AcDbEntity
  8
point_id
100
AcDbText
 10
141801.0108
 20
469225.961
 30
3.5653
 40
0.35
  1
    6
 11
141801.0108
 21
469225.961
 31
3.5653
100
AcDbText
 73
2
  0
TEXT
  5
5E
330
17
100
AcDbEntity
  8
attributes
100
AcDbText
 10
141801.0108
 20
469226.36100000003
 30
3.5653
 40
0.25
  1
    Height=3.5653
 11
141801.0108
 21
469226.36100000003
 31
3.5653
100
AcDbText
 73
2
  0
TEXT
  5
5F
330
17
100
AcDbEntity
  8
attributes
100
AcDbText
 10
141801.0108
 20
469226.761
 30
3.5653
 40
0.25
  1
    Diameter=150
 11
141801.0108
 21
469226.761
 31
3.5653
100
AcDbText
 73
2
  0
TEXT
  5
60
330
17
100
AcDbEntity
  8
attributes
100
AcDbText
 10
141801.0108
 20
469227.161
 30
3.5653
 40
0.25
  1
    Health=Good
 11
141801.0108
 21
469227.161
 31
3.5653
100
AcDbText
 73
2
  0
INSERT
  5
62
330
17
100
AcDbEntity
  8
Tree
100
AcDbBlockReference
  2
marxact_point
 10
141795.4068
 20
469224.0998
 30
3.5208
  0
TEXT
  5
64
330
17
100
AcDbEntity
  8
point_id
100
AcDbText
 10
141795.4068
 20
469224.0998
 30
3.5208
 40
0.35
  1
    7
 11
141795.4068
 21
469224.0998
 31
3.5208
100
AcDbText
 73
2
  0
TEXT
  5
65
330
17
100
AcDbEntity
  8
attributes
100
AcDbText
 10
141795.4068
 20
469224.49980000005
 30
3.5208
 40
0.25
  1
    Height=3.5208
 11
141795.4068
 21
469224.49980000005
 31
3.5208
100
AcDbText
 73
2
  0
TEXT
  5
66
330
17
100
AcDbEntity
  8
attributes
100
AcDbText
 10
141795.4068
 20
469224.8998
 30
3.5208
 40
0.25
  1
    Diameter=100
 11
141795.4068
 21
469224.8998
 31
3.5208
100
AcDbText
 73
2
  0
TEXT
  5
67
330
17
100
AcDbEntity
  8
attributes
100
AcDbText
 10
141795.4068
 20
469225.29980000004
 30
3.5208
 40
0.25
  1
    Health=None
 11
141795.4068
 21
469225.29980000004
 31
3.5208
100
AcDbText
 73
2
  0
INSERT
  5
69
330
17
100
AcDbEntity
  8
Tree
100
AcDbBlockReference
  2
marxact_point
 10
141791.9077
 20
469225.5639
 30
3.4839
  0
TEXT
  5
6B
330
17
100
AcDbEntity
  8
point_id
100
AcDbText
 10
141791.9077
 20
469225.5639
 30
3.4839
 40
0.35
  1
    8
 11
141791.9077
 21
469225.5639
 31
3.4839
100
AcDbText
 73
2
  0
TEXT
  5
6C
330
17
100
AcDbEntity
  8
attributes
100
AcDbText
 10
141791.9077
 20
469225.96390000003
 30
3.4839
 40
0.25
  1
    Height=3.4839
 11
141791.9077
 21
469225.96390000003
 31
3.4839
100
AcDbText
 73
2
  0
TEXT
  5
6D
330
17
100
AcDbEntity
  8
attributes
100
AcDbText
 10
141791.9077
 20
469226.3639
 30
3.4839
 40
0.25
  1
    Diameter=100
 11
141791.9077
 21
469226.3639
 31
3.4839
100
AcDbText
 73
2
  0
TEXT
  5
6E
330
17
100
AcDbEntity
  8
attributes
100
AcDbText
 10
141791.9077
 20
469226.7639
 30
3.4839
 40
0.25
  1
    Health=Bad
 11
141791.9077
 21
469226.7639
 31
3.4839
100
AcDbText
 73
2
  0
INSERT
  5
71
330
17
100
AcDbEntity
  8
Cable
100
AcDbBlockReference
  2
marxact_point
 10
141792.2219
 20
469228.4328
 30
3.4757
  0
TEXT
  5
73
330
17
100
AcDbEntity
  8
polyline_id
100
AcDbText
 10
141792.2219
 20
469228.4328
 30
3.4757
 40
0.35
  1
    1-1
 11
141792.2219
 21
469228.4328
 31
3.4757
100
AcDbText
 73
2
  0
TEXT
  5
74
330
17
100
AcDbEntity
  8
attributes
100
AcDbText
 10
141792.2219
 20
469228.83280000003
 30
3.4757
 40
0.25
  1
    Height=3.4757
 11
141792.2219
 21
469228.83280000003
 31
3.4757
100
AcDbText
 73
2
  0
TEXT
  5
75
330
17
100
AcDbEntity
  8
attributes
100
AcDbText
 10
141792.2219
 20
469229.2328
 30
3.4757
 40
0.25
  1
    Diameter=10
 11
141792.2219
 21
469229.2328
 31
3.4757
100
AcDbText
 73
2
  0
TEXT
  5
76
330
17
100
AcDbEntity
  8
attributes
100
AcDbText
 10
141792.2219
 20
469229.6328
 30
3.4757
 40
0.25
  1
    Type=Electricity
 11
141792.2219
 21
469229.6328
 31
3.4757
100
AcDbText
 73
2
  0
INSERT
  5
78
330
17
100
AcDbEntity
  8
Cable
100
AcDbBlockReference
  2
marxact_point
 10
141796.2068
 20
469234.3513
 30
3.535
  0
TEXT
  5
7A
330
17
100
AcDbEntity
  8
polyline_id
100
AcDbText
 10
141796.2068
 20
469234.3513
 30
3.535
 40
0.35
  1
    1-2
 11
141796.2068
 21
469234.3513
 31
3.535
100
AcDbText
 73
2
  0
TEXT
  5
7B
330
17
100
AcDbEntity
  8
attributes
100
AcDbText
 10
141796.2068
 20
469234.7513
 30
3.535
 40
0.25
  1
    Height=3.5350
 11
141796.2068
 21
469234.7513
 31
3.535
100
AcDbText
 73
2
  0
TEXT
  5
7C
330
17
100
AcDbEntity
  8
attributes
100
AcDbText
 10
141796.2068
 20
469235.15129999997
 30
3.535
 40
0.25
  1
    Diameter=10
 11
141796.2068
 21
469235.15129999997
 31
3.535
100
AcDbText
 73
2
  0
TEXT
  5
7D
330
17
100
AcDbEntity
  8
attributes
100
AcDbText
 10
141796.2068
 20
469235.5513
 30
3.535
 40
0.25
  1
    Type=Electricity
 11
141796.2068
 21
469235.5513
 31
3.535
100
AcDbText
 73
2
  0
INSERT
  5
7F
330
17
100
AcDbEntity
  8
Cable
100
AcDbBlockReference
  2
marxact_point
 10
141800.2193
 20
469240.7573
 30
3.4752
  0
TEXT
  5
81
330
17
100
AcDbEntity
  8
polyline_id
100
AcDbText
 10
141800.2193
 20
469240.7573
 30
3.4752
 40
0.35
  1
    1-3
 11
141800.2193
 21
469240.7573
 31
3.4752
100
AcDbText
 73
2
  0
TEXT
  5
82
330
17
100
AcDbEntity
  8
attributes
100
AcDbText
 10
141800.2193
 20
469241.1573
 30
3.4752
 40
0.25
  1
    Height=3.4752
 11
141800.2193
 21
469241.1573
 31
3.4752
100
AcDbText
 73
2
  0
TEXT
  5
83
330
17
100
AcDbEntity
  8
attributes
100
AcDbText
 10
141800.2193
 20
469241.5573
 30
3.4752
 40
0.25
  1
    Diameter=10
 11
141800.2193
 21
469241.5573
 31
3.4752
100
AcDbText
 73
2
  0
TEXT
  5
84
330
17
100
AcDbEntity
  8
attributes
100
AcDbText
 10
141800.2193
 20
469241.9573
 30
3.4752
 40
0.25
  1
    Type=Electricity
 11
141800.2193
 21
469241.9573
 31
3.4752
100
AcDbText
 73
2
  0
INSERT
  5
86
330
17
100
AcDbEntity
  8
Cable
100
AcDbBlockReference
  2
marxact_point
 10
141804.5249
 20
469247.2897
 30
3.5587
  0
TEXT
  5
88
330
17
100
AcDbEntity
  8
polyline_id
100
AcDbText
 10
141804.5249
 20
469247.2897
 30
3.5587
 40
0.35
  1
    1-4
 11
141804.5249
 21
469247.2897
 31
3.5587
100
AcDbText
 73
2
  0
TEXT
  5
89
330
17
100
AcDbEntity
  8
attributes
100
AcDbText
 10
141804.5249
 20
469247.68970000005
 30
3.5587
 40
0.25
  1
    Height=3.5587
 11
141804.5249
 21
469247.68970000005
 31
3.5587
100
AcDbText
 73
2
  0
TEXT
  5
8A
330
17
100
AcDbEntity
  8
attributes
100
AcDbText
 10
141804.5249
 20
469248.0897
 30
3.5587
 40
0.25
  1
    Diameter=10
 11
141804.5249
 21
469248.0897
 31
3.5587
100
AcDbText
 73
2
  0
TEXT
  5
8B
330
17
100
AcDbEntity
  8
attributes
100
AcDbText
 10
141804.5249
 20
469248.48970000003
 30
3.5587
 40
0.25
  1
    Type=Electricity
 11
141804.5249
 21
469248.48970000003
 31
3.5587
100
AcDbText
 73
2
  0
INSERT
  5
8D
330
17
100
AcDbEntity
  8
Cable
100
AcDbBlockReference
  2
marxact_point
 10
141808.26
 20
469253.1134
 30
3.4988
  0
TEXT
  5
8F
330
17
100
AcDbEntity
  8
polyline_id
100
AcDbText
 10
141808.26
 20
469253.1134
 30
3.4988
 40
0.35
  1
    1-5
 11
141808.26
 21
469253.1134
 31
3.4988
100
AcDbText
 73
2
  0
TEXT
  5
90
330
17
100
AcDbEntity
  8
attributes
100
AcDbText
 10
141808.26
 20
469253.5134
 30
3.4988
 40
0.25
  1
    Height=3.4988
 11
141808.26
 21
469253.5134
 31
3.4988
100
AcDbText
 73
2
  0
TEXT
  5
91
330
17
100
AcDbEntity
  8
attributes
100
AcDbText
 10
141808.26
 20
469253.91339999996
 30
3.4988
 40
0.25
  1
    Diameter=10
 11
141808.26
 21
469253.91339999996
 31
3.4988
100
AcDbText
 73
2
  0
TEXT
  5
92
330
17
100
AcDbEntity
  8
attributes
100
AcDbText
 10
141808.26
 20
469254.3134
 30
3.4988
 40
0.25
  1
    Type=Electricity
 11
141808.26
 21
469254.3134
 31
3.4988
100
AcDbText
 73
2
  0
POLYLINE
  5
93
330
17
100
AcDbEntity
  8
Cable
100
AcDb3dPolyline
 66
1
 70
8
  0
VERTEX
  5
95
330
17
100
AcDbEntity
  8
Cable
100
AcDbVertex
100
AcDb3dPolylineVertex
 10
141792.2219
 20
469228.4328
 30
3.4757
 70
32
  0
VERTEX
  5
96
330
17
100
AcDbEntity
  8
Cable
100
AcDbVertex
100
AcDb3dPolylineVertex
 10
141796.2068
 20
469234.3513
 30
3.535
 70
32
  0
VERTEX
  5
97
330
17
100
AcDbEntity
  8
Cable
100
AcDbVertex
100
AcDb3dPolylineVertex
 10
141800.2193
 20
469240.7573
 30
3.4752
 70
32
  0
VERTEX
  5
98
330
17
100
AcDbEntity
  8
Cable
100
AcDbVertex
100
AcDb3dPolylineVertex
 10
141804.5249
 20
469247.2897
 30
3.5587
 70
32
  0
VERTEX
  5
99
330
17
100
AcDbEntity
  8
Cable
100
AcDbVertex
100
AcDb3dPolylineVertex
 10
141808.26
 20
469253.1134
 30
3.4988
 70
32
  0
SEQEND
  5
94
330
17
100
AcDbEntity
  8
Cable
  0
INSERT
  5
9C
330
17
100
AcDbEntity
  8
Road
100
AcDbBlockReference
  2
marxact_point
 10
141795.6263
 20
469228.73
 30
3.588
  0
TEXT
  5
9E
330
17
100
AcDbEntity
  8
polyline_id
100
AcDbText
 10
141795.6263
 20
469228.73
 30
3.588
 40
0.35
  1
    2-1
 11
141795.6263
 21
469228.73
 31
3.588
100
AcDbText
 73
2
  0
TEXT
  5
9F
330
17
100
AcDbEntity
  8
attributes
100
AcDbText
 10
141795.6263
 20
469229.13
 30
3.588
 40
0.25
  1
    Height=3.5880
 11
141795.6263
 21
469229.13
 31
3.588
100
AcDbText
 73
2
  0
TEXT
  5
A0
330
17
100
AcDbEntity
  8
attributes
100
AcDbText
 10
141795.6263
 20
469229.52999999997
 30
3.588
 40
0.25
  1
    Part=Side
 11
141795.6263
 21
469229.52999999997
 31
3.588
100
AcDbText
 73
2
  0
INSERT
  5
A2
330
17
100
AcDbEntity
  8
Road
100
AcDbBlockReference
  2
marxact_point
 10
141794.0014
 20
469227.5235
 30
3.6062
  0
TEXT
  5
A4
330
17
100
AcDbEntity
  8
polyline_id
100
AcDbText
 10
141794.0014
 20
469227.5235
 30
3.6062
 40
0.35
  1
    2-2
 11
141794.0014
 21
469227.5235
 31
3.6062
100
AcDbText
 73
2
  0
TEXT
  5
A5
330
17
100
AcDbEntity
  8
attributes
100
AcDbText
 10
141794.0014
 20
469227.92350000003
 30
3.6062
 40
0.25
  1
    Height=3.6062
 11
141794.0014
 21
469227.92350000003
 31
3.6062
100
AcDbText
 73
2
  0
TEXT
  5
A6
330
17
100
AcDbEntity
  8
attributes
100
AcDbText
 10
141794.0014
 20
469228.3235
 30
3.6062
 40
0.25
  1
    Part=Side
 11
141794.0014
 21
469228.3235
 31
3.6062
100
AcDbText
 73
2
  0
INSERT
  5
A8
330
17
100
AcDbEntity
  8
Road
100
AcDbBlockReference
  2
marxact_point
 10
141792.1229
 20
469226.9551
 30
3.5743
  0
TEXT
  5
AA
330
17
100
AcDbEntity
  8
polyline_id
100
AcDbText
 10
141792.1229
 20
469226.9551
 30
3.5743
 40
0.35
  1
    2-3
 11
141792.1229
 21
469226.9551
 31
3.5743
100
AcDbText
 73
2
  0
TEXT
  5
AB
330
17
100
AcDbEntity
  8
attributes
100
AcDbText
 10
141792.1229
 20
469227.35510000004
 30
3.5743
 40
0.25
  1
    Height=3.5743
 11
141792.1229
 21
469227.35510000004
 31
3.5743
100
AcDbText
 73
2
  0
TEXT
  5
AC
330
17
100
AcDbEntity
  8
attributes
100
AcDbText
 10
141792.1229
 20
469227.7551
 30
3.5743
 40
0.25
  1
    Part=Side
 11
141792.1229
 21
469227.7551
 31
3.5743
100
AcDbText
 73
2
  0
INSERT
  5
AE
330
17
100
AcDbEntity
  8
Road
100
AcDbBlockReference
  2
marxact_point
 10
141789.8693
 20
469227.3719
 30
3.5843
  0
TEXT
  5
B0
330
17
100
AcDbEntity
  8
polyline_id
100
AcDbText
 10
141789.8693
 20
469227.3719
 30
3.5843
 40
0.35
  1
    2-4
 11
141789.8693
 21
469227.3719
 31
3.5843
100
AcDbText
 73
2
  0
TEXT
  5
B1
330
17
100
AcDbEntity
  8
attributes
100
AcDbText
 10
141789.8693
 20
469227.77190000005
 30
3.5843
 40
0.25
  1
    Height=3.5843
 11
141789.8693
 21
469227.77190000005
 31
3.5843
100
AcDbText
 73
2
  0
TEXT
  5
B2
330
17
100
AcDbEntity
  8
attributes
100
AcDbText
 10
141789.8693
 20
469228.1719
 30
3.5843
 40
0.25
  1
    Part=Side
 11
141789.8693
 21
469228.1719
 31
3.5843
100
AcDbText
 73
2
  0
INSERT
  5
B4
330
17
100
AcDbEntity
  8
Road
100
AcDbBlockReference
  2
marxact_point
 10
141787.41
 20
469228.7776
 30
3.6142
  0
TEXT
  5
B6
330
17
100
AcDbEntity
  8
polyline_id
100
AcDbText
 10
141787.41
 20
469228.7776
 30
3.6142
 40
0.35
  1
    2-5
 11
141787.41
 21
469228.7776
 31
3.6142
100
AcDbText
 73
2
  0
TEXT
  5
B7
330
17
100
AcDbEntity
  8
attributes
100
AcDbText
 10
141787.41
 20
469229.1776
 30
3.6142
 40
0.25
  1
    Height=3.6142
 11
141787.41
 21
469229.1776
 31
3.6142
100
AcDbText
 73
2
  0
TEXT
  5
B8
330
17
100
AcDbEntity
  8
attributes
100
AcDbText
 10
141787.41
 20
469229.57759999996
 30
3.6142
 40
0.25
  1
    Part=Side
 11
141787.41
 21
469229.57759999996
 31
3.6142
100
AcDbText
 73
2
  0
POLYLINE
  5
B9
330
17
100
AcDbEntity
  8
Road
100
AcDb3dPolyline
 66
1
 70
8
  0
VERTEX
  5
BB
330
17
100
AcDbEntity
  8
Road
100
AcDbVertex
100
AcDb3dPolylineVertex
 10
141795.6263
 20
469228.73
 30
3.588
 70
32
  0
VERTEX
  5
BC
330
17
100
AcDbEntity
  8
Road
100
AcDbVertex
100
AcDb3dPolylineVertex
 10
141794.0014
 20
469227.5235
 30
3.6062
 70
32
  0
VERTEX
  5
BD
330
17
100
AcDbEntity
  8
Road
100
AcDbVertex
100
AcDb3dPolylineVertex
 10
141792.1229
 20
469226.9551
 30
3.5743
 70
32
  0
VERTEX
  5
BE
330
17
100
AcDbEntity
  8
Road
100
AcDbVertex
100
AcDb3dPolylineVertex
 10
141789.8693
 20
469227.3719
 30
3.5843
 70
32
  0
VERTEX
  5
BF
330
17
100
AcDbEntity
  8
Road
100
AcDbVertex
100
AcDb3dPolylineVertex
 10
141787.41
 20
469228.7776
 30
3.6142
 70
32
  0
SEQEND
  5
BA
330
17
100
AcDbEntity
  8
Road
  0
INSERT
  5
C1
330
17
100
AcDbEntity
  8
Road
100
AcDbBlockReference
  2
marxact_point
 10
141795.6263
 20
469228.73
 30
3.588
  0
TEXT
  5
C3
330
17
100
AcDbEntity
  8
polyline_id
100
AcDbText
 10
141795.6263
 20
469228.73
 30
3.588
 40
0.35
  1
    3-1
 11
141795.6263
 21
469228.73
 31
3.588
100
AcDbText
 73
2
  0
TEXT
  5
C4
330
17
100
AcDbEntity
  8
attributes
100
AcDbText
 10
141795.6263
 20
469229.13
 30
3.588
 40
0.25
  1
    Height=3.5880
 11
141795.6263
 21
469229.13
 31
3.588
100
AcDbText
 73
2
  0
TEXT
  5
C5
330
17
100
AcDbEntity
  8
attributes
100
AcDbText
 10
141795.6263
 20
469229.52999999997
 30
3.588
 40
0.25
  1
    Part=Side
 11
141795.6263
 21
469229.52999999997
 31
3.588
100
AcDbText
 73
2
  0
INSERT
  5
C7
330
17
100
AcDbEntity
  8
Road
100
AcDbBlockReference
  2
marxact_point
 10
141794.0014
 20
469227.5235
 30
3.6062
  0
TEXT
  5
C9
330
17
100
AcDbEntity
  8
polyline_id
100
AcDbText
 10
141794.0014
 20
469227.5235
 30
3.6062
 40
0.35
  1
    3-2
 11
141794.0014
 21
469227.5235
 31
3.6062
100
AcDbText
 73
2
  0
TEXT
  5
CA
330
17
100
AcDbEntity
  8
attributes
100
AcDbText
 10
141794.0014
 20
469227.92350000003
 30
3.6062
 40
0.25
  1
    Height=3.6062
 11
141794.0014
 21
469227.92350000003
 31
3.6062
100
AcDbText
 73
2
  0
TEXT
  5
CB
330
17
100
AcDbEntity
  8
attributes
100
AcDbText
 10
141794.0014
 20
469228.3235
 30
3.6062
 40
0.25
  1
    Part=Side
 11
141794.0014
 21
469228.3235
 31
3.6062
100
AcDbText
 73
2
  0
INSERT
  5
CD
330
17
100
AcDbEntity
  8
Road
100
AcDbBlockReference
  2
marxact_point
 10
141792.1229
 20
469226.9551
 30
3.5743
  0
TEXT
  5
CF
330
17
100
AcDbEntity
  8
polyline_id
100
AcDbText
 10
141792.1229
 20
469226.9551
 30
3.5743
 40
0.35
  1
    3-3
 11
141792.1229
 21
469226.9551
 31
3.5743
100
AcDbText
 73
2
  0
TEXT
  5
D0
330
17
100
AcDbEntity
  8
attributes
100
AcDbText
 10
141792.1229
 20
469227.35510000004
 30
3.5743
 40
0.25
  1
    Height=3.5743
 11
141792.1229
 21
469227.35510000004
 31
3.5743
100
AcDbText
 73
2
  0
TEXT
  5
D1
330
17
100
AcDbEntity
  8
attributes
100
AcDbText
 10
141792.1229
 20
469227.7551
 30
3.5743
 40
0.25
  1
    Part=Side
 11
141792.1229
 21
469227.7551
 31
3.5743
100
AcDbText
 73
2
  0
INSERT
  5
D3
330
17
100
AcDbEntity
  8
Road
100
AcDbBlockReference
  2
marxact_point
 10
141789.8693
 20
469227.3719
 30
3.5843
  0
TEXT
  5
D5
330
17
100
AcDbEntity
  8
polyline_id
100
AcDbText
 10
141789.8693
 20
469227.3719
 30
3.5843
 40
0.35
  1
    3-4
 11
141789.8693
 21
469227.3719
 31
3.5843
100
AcDbText
 73
2
  0
TEXT
  5
D6
330
17
100
AcDbEntity
  8
attributes
100
AcDbText
 10
141789.8693
 20
469227.77190000005
 30
3.5843
 40
0.25
  1
    Height=3.5843
 11
141789.8693
 21
469227.77190000005
 31
3.5843
100
AcDbText
 73
2
  0
TEXT
  5
D7
330
17
100
AcDbEntity
  8
attributes
100
AcDbText
 10
141789.8693
 20
469228.1719
 30
3.5843
 40
0.25
  1
    Part=Side
 11
141789.8693
 21
469228.1719
 31
3.5843
100
AcDbText
 73
2
  0
INSERT
  5
D9
330
17
100
AcDbEntity
  8
Road
100
AcDbBlockReference
  2
marxact_point
 10
141787.41
 20
469228.7776
 30
3.6142
  0
TEXT
  5
DB
330
17
100
AcDbEntity
  8
polyline_id
100
AcDbText
 10
141787.41
 20
469228.7776
 30
3.6142
 40
0.35
  1
    3-5
 11
141787.41
 21
469228.7776
 31
3.6142
100
AcDbText
 73
2
  0
TEXT
  5
DC
330
17
100
AcDbEntity
  8
attributes
100
AcDbText
 10
141787.41
 20
469229.1776
 30
3.6142
 40
0.25
  1
    Height=3.6142
 11
141787.41
 21
469229.1776
 31
3.6142
100
AcDbText
 73
2
  0
TEXT
  5
DD
330
17
100
AcDbEntity
  8
attributes
100
AcDbText
 10
141787.41
 20
469229.57759999996
 30
3.6142
 40
0.25
  1
    Part=Side
 11
141787.41
 21
469229.57759999996
 31
3.6142
100
AcDbText
 73
2
  0
POLYLINE
  5
DE
330
17
100
AcDbEntity
  8
Road
100
AcDb3dPolyline
 66
1
 70
8
  0
VERTEX
  5
E0
330
17
100
AcDbEntity
  8
Road
100
AcDbVertex
100
AcDb3dPolylineVertex
 10
141795.6263
 20
469228.73
 30
3.588
 70
32
  0
VERTEX
  5
E1
330
17
100
AcDbEntity
  8
Road
100
AcDbVertex
100
AcDb3dPolylineVertex
 10
141794.0014
 20
469227.5235
 30
3.6062
 70
32
  0
VERTEX
  5
E2
330
17
100
AcDbEntity
  8
Road
100
AcDbVertex
100
AcDb3dPolylineVertex
 10
141792.1229
 20
469226.9551
 30
3.5743
 70
32
  0
VERTEX
  5
E3
330
17
100
AcDbEntity
  8
Road
100
AcDbVertex
100
AcDb3dPolylineVertex
 10
141789.8693
 20
469227.3719
 30
3.5843
 70
32
  0
VERTEX
  5
E4
330
17
100
AcDbEntity
  8
Road
100
AcDbVertex
100
AcDb3dPolylineVertex
 10
141787.41
 20
469228.7776
 30
3.6142
 70
32
  0
SEQEND
  5
DF
330
17
100
AcDbEntity
  8
Road
  0
INSERT
  5
E6
330
17
100
AcDbEntity
  8
Road
100
AcDbBlockReference
  2
marxact_point
 10
141795.6263
 20
469228.73
 30
3.588
  0
TEXT
  5
E8
330
17
100
AcDbEntity
  8
polyline_id
100
AcDbText
 10
141795.6263
 20
469228.73
 30
3.588
 40
0.35
  1
    4-1
 11
141795.6263
 21
469228.73
 31
3.588
100
AcDbText
 73
2
  0
TEXT
  5
E9
330
17
100
AcDbEntity
  8
attributes
100
AcDbText
 10
141795.6263
 20
469229.13
 30
3.588
 40
0.25
  1
    Height=3.5880
 11
141795.6263
 21
469229.13
 31
3.588
100
AcDbText
 73
2
  0
TEXT
  5
EA
330
17
100
AcDbEntity
  8
attributes
100
AcDbText
 10
141795.6263
 20
469229.52999999997
 30
3.588
 40
0.25
  1
    Part=Side
 11
141795.6263
 21
469229.52999999997
 31
3.588
100
AcDbText
 73
2
  0
INSERT
  5
EC
330
17
100
AcDbEntity
  8
Road
100
AcDbBlockReference
  2
marxact_point
 10
141794.0014
 20
469227.5235
 30
3.6062
  0
TEXT
  5
EE
330
17
100
AcDbEntity
  8
polyline_id
100
AcDbText
 10
141794.0014
 20
469227.5235
 30
3.6062
 40
0.35
  1
    4-2
 11
141794.0014
 21
469227.5235
 31
3.6062
100
AcDbText
 73
2
  0
TEXT
  5
EF
330
17
100
AcDbEntity
  8
attributes
100
AcDbText
 10
141794.0014
 20
469227.92350000003
 30
3.6062
 40
0.25
  1
    Height=3.6062
 11
141794.0014
 21
469227.92350000003
 31
3.6062
100
AcDbText
 73
2
  0
TEXT
  5
F0
330
17
100
AcDbEntity
  8
attributes
100
AcDbText
 10
141794.0014
 20
469228.3235
 30
3.6062
 40
0.25
  1
    Part=Side
 11
141794.0014
 21
469228.3235
 31
3.6062
100
AcDbText
 73
2
  0
INSERT
  5
F2
330
17
100
AcDbEntity
  8
Road
100
AcDbBlockReference
  2
marxact_point
 10
141792.1229
 20
469226.9551
 30
3.5743
  0
TEXT
  5
F4
330
17
100
AcDbEntity
  8
polyline_id
100
AcDbText
 10
141792.1229
 20
469226.9551
 30
3.5743
 40
0.35
  1
    4-3
 11
141792.1229
 21
469226.9551
 31
3.5743
100
AcDbText
 73
2
  0
TEXT
  5
F5
330
17
100
AcDbEntity
  8
attributes
100
AcDbText
 10
141792.1229
 20
469227.35510000004
 30
3.5743
 40
0.25
  1
    Height=3.5743
 11
141792.1229
 21
469227.35510000004
 31
3.5743
100
AcDbText
 73
2
  0
TEXT
  5
F6
330
17
100
AcDbEntity
  8
attributes
100
AcDbText
 10
141792.1229
 20
469227.7551
 30
3.5743
 40
0.25
  1
    Part=Side
 11
141792.1229
 21
469227.7551
 31
3.5743
100
AcDbText
 73
2
  0
INSERT
  5
F8
330
17
100
AcDbEntity
  8
Road
100
AcDbBlockReference
  2
marxact_point
 10
141789.8693
 20
469227.3719
 30
3.5843
  0
TEXT
  5
FA
330
17
100
AcDbEntity
  8
polyline_id
100
AcDbText
 10
141789.8693
 20
469227.3719
 30
3.5843
 40
0.35
  1
    4-4
 11
141789.8693
 21
469227.3719
 31
3.5843
100
AcDbText
 73
2
  0
TEXT
  5
FB
330
17
100
AcDbEntity
  8
attributes
100
AcDbText
 10
141789.8693
 20
469227.77190000005
 30
3.5843
 40
0.25
  1
    Height=3.5843
 11
141789.8693
 21
469227.77190000005
 31
3.5843
100
AcDbText
 73
2
  0
TEXT
  5
FC
330
17
100
AcDbEntity
  8
attributes
100
AcDbText
 10
141789.8693
 20
469228.1719
 30
3.5843
 40
0.25
  1
    Part=Side
 11
141789.8693
 21
469228.1719
 31
3.5843
100
AcDbText
 73
2
  0
INSERT
  5
FE
330
17
100
AcDbEntity
  8
Road
100
AcDbBlockReference
  2
marxact_point
 10
141787.41
 20
469228.7776
 30
3.6142
  0
TEXT
  5
100
330
17
100
AcDbEntity
  8
polyline_id
100
AcDbText
 10
141787.41
 20
469228.7776
 30
3.6142
 40
0.35
  1
    4-5
 11
141787.41
 21
469228.7776
 31
3.6142
100
AcDbText
 73
2
  0
TEXT
  5
101
330
17
100
AcDbEntity
  8
attributes
100
AcDbText
 10
141787.41
 20
469229.1776
 30
3.6142
 40
0.25
  1
    Height=3.6142
 11
141787.41
 21
469229.1776
 31
3.6142
100
AcDbText
 73
2
  0
TEXT
  5
102
330
17
100
AcDbEntity
  8
attributes
100
AcDbText
 10
141787.41
 20
469229.57759999996
 30
3.6142
 40
0.25
  1
    Part=Side
 11
141787.41
 21
469229.57759999996
 31
3.6142
100
AcDbText
 73
2
  0
POLYLINE
  5
103
330
17
100
AcDbEntity
  8
Road
100
AcDb3dPolyline
 66
1
 70
8
  0
VERTEX
  5
105
330
17
100
AcDbEntity
  8
Road
100
AcDbVertex
100
AcDb3dPolylineVertex
 10
141795.6263
 20
469228.73
 30
3.588
 70
32
  0
VERTEX
  5
106
330
17
100
AcDbEntity
  8
Road
100
AcDbVertex
100
AcDb3dPolylineVertex
 10
141794.0014
 20
469227.5235
 30
3.6062
 70
32
  0
VERTEX
  5
107
330
17
100
AcDbEntity
  8
Road
100
AcDbVertex
100
AcDb3dPolylineVertex
 10
141792.1229
 20
469226.9551
 30
3.5743
 70
32
  0
VERTEX
  5
108
330
17
100
AcDbEntity
  8
Road
100
AcDbVertex
100
AcDb3dPolylineVertex
 10
141789.8693
 20
469227.3719
 30
3.5843
 70
32
  0
VERTEX
  5
109
330
17
100
AcDbEntity
  8
Road
100
AcDbVertex
100
AcDb3dPolylineVertex
 10
141787.41
 20
469228.7776
 30
3.6142
 70
32
  0
SEQEND
  5
104
330
17
100
AcDbEntity
  8
Road
  0
INSERT
  5
10B
330
17
100
AcDbEntity
  8
Road
100
AcDbBlockReference
  2
marxact_point
 10
141795.6263
 20
469228.73
 30
3.588
  0
TEXT
  5
10D
330
17
100
AcDbEntity
  8
polyline_id
100
AcDbText
 10
141795.6263
 20
469228.73
 30
3.588
 40
0.35
  1
    5-1
 11
141795.6263
 21
469228.73
 31
3.588
100
AcDbText
 73
2
  0
TEXT
  5
10E
330
17
100
AcDbEntity
  8
attributes
100
AcDbText
 10
141795.6263
 20
469229.13
 30
3.588
 40
0.25
  1
    Height=3.5880
 11
141795.6263
 21
469229.13
 31
3.588
100
AcDbText
 73
2
  0
TEXT
  5
10F
330
17
100
AcDbEntity
  8
attributes
100
AcDbText
 10
141795.6263
 20
469229.52999999997
 30
3.588
 40
0.25
  1
    Part=Side
 11
141795.6263
 21
469229.52999999997
 31
3.588
100
AcDbText
 73
2
  0
INSERT
  5
111
330
17
100
AcDbEntity
  8
Road
100
AcDbBlockReference
  2
marxact_point
 10
141794.0014
 20
469227.5235
 30
3.6062
  0
TEXT
  5
113
330
17
100
AcDbEntity
  8
polyline_id
100
AcDbText
 10
141794.0014
 20
469227.5235
 30
3.6062
 40
0.35
  1
    5-2
 11
141794.0014
 21
469227.5235
 31
3.6062
100
AcDbText
 73
2
  0
TEXT
  5
114
330
17
100
AcDbEntity
  8
attributes
100
AcDbText
 10
141794.0014
 20
469227.92350000003
 30
3.6062
 40
0.25
  1
    Height=3.6062
 11
141794.0014
 21
469227.92350000003
 31
3.6062
100
AcDbText
 73
2
  0
TEXT
  5
115
330
17
100
AcDbEntity
  8
attributes
100
AcDbText
 10
141794.0014
 20
469228.3235
 30
3.6062
 40
0.25
  1
    Part=Side
 11
141794.0014
 21
469228.3235
 31
3.6062
100
AcDbText
 73
2
  0
INSERT
  5
117
330
17
100
AcDbEntity
  8
Road
100
AcDbBlockReference
  2
marxact_point
 10
141792.1229
 20
469226.9551
 30
3.5743
  0
TEXT
  5
119
330
17
100
AcDbEntity
  8
polyline_id
100
AcDbText
 10
141792.1229
 20
469226.9551
 30
3.5743
 40
0.35
  1
    5-3
 11
141792.1229
 21
469226.9551
 31
3.5743
100
AcDbText
 73
2
  0
TEXT
  5
11A
330
17
100
AcDbEntity
  8
attributes
100
AcDbText
 10
141792.1229
 20
469227.35510000004
 30
3.5743
 40
0.25
  1
    Height=3.5743
 11
141792.1229
 21
469227.35510000004
 31
3.5743
100
AcDbText
 73
2
  0
TEXT
  5
11B
330
17
100
AcDbEntity
  8
attributes
100
AcDbText
 10
141792.1229
 20
469227.7551
 30
3.5743
 40
0.25
  1
    Part=Side
 11
141792.1229
 21
469227.7551
 31
3.5743
100
AcDbText
 73
2
  0
INSERT
  5
11D
330
17
100
AcDbEntity
  8
Road
100
AcDbBlockReference
  2
marxact_point
 10
141789.8693
 20
469227.3719
 30
3.5843
  0
TEXT
  5
11F
330
17
100
AcDbEntity
  8
polyline_id
100
AcDbText
 10
141789.8693
 20
469227.3719
 30
3.5843
 40
0.35
  1
    5-4
 11
141789.8693
 21
469227.3719
 31
3.5843
100
AcDbText
 73
2
  0
TEXT
  5
120
330
17
100
AcDbEntity
  8
attributes
100
AcDbText
 10
141789.8693
 20
469227.77190000005
 30
3.5843
 40
0.25
  1
    Height=3.5843
 11
141789.8693
 21
469227.77190000005
 31
3.5843
100
AcDbText
 73
2
  0
TEXT
  5
121
330
17
100
AcDbEntity
  8
attributes
100
AcDbText
 10
141789.8693
 20
469228.1719
 30
3.5843
 40
0.25
  1
    Part=Side
 11
141789.8693
 21
469228.1719
 31
3.5843
100
AcDbText
 73
2
  0
INSERT
  5
123
330
17
100
AcDbEntity
  8
Road
100
AcDbBlockReference
  2
marxact_point
 10
141787.41
 20
469228.7776
 30
3.6142
  0
TEXT
  5
125
330
17
100
AcDbEntity
  8
polyline_id
100
AcDbText
 10
141787.41
 20
469228.7776
 30
3.6142
 40
0.35
  1
    5-5
 11
141787.41
 21
469228.7776
 31
3.6142
100
AcDbText
 73
2
  0
TEXT
  5
126
330
17
100
AcDbEntity
  8
attributes
100
AcDbText
 10
141787.41
 20
469229.1776
 30
3.6142
 40
0.25
  1
    Height=3.6142
 11
141787.41
 21
469229.1776
 31
3.6142
100
AcDbText
 73
2
  0
TEXT
  5
127
330
17
100
AcDbEntity
  8
attributes
100
AcDbText
 10
141787.41
 20
469229.57759999996
 30
3.6142
 40
0.25
  1
    Part=Side
 11
141787.41
 21
469229.57759999996
 31
3.6142
100
AcDbText
 73
2
  0
POLYLINE
  5
128
330
17
100
AcDbEntity
  8
Road
100
AcDb3dPolyline
 66
1
 70
8
  0
VERTEX
  5
12A
330
17
100
AcDbEntity
  8
Road
100
AcDbVertex
100
AcDb3dPolylineVertex
 10
141795.6263
 20
469228.73
 30
3.588
 70
32
  0
VERTEX
  5
12B
330
17
100
AcDbEntity
  8
Road
100
AcDbVertex
100
AcDb3dPolylineVertex
 10
141794.0014
 20
469227.5235
 30
3.6062
 70
32
  0
VERTEX
  5
12C
330
17
100
AcDbEntity
  8
Road
100
AcDbVertex
100
AcDb3dPolylineVertex
 10
141792.1229
 20
469226.9551
 30
3.5743
 70
32
  0
VERTEX
  5
12D
330
17
100
AcDbEntity
  8
Road
100
AcDbVertex
100
AcDb3dPolylineVertex
 10
141789.8693
 20
469227.3719
 30
3.5843
 70
32
  0
VERTEX
  5
12E
330
17
100
AcDbEntity
  8
Road
100
AcDbVertex
100
AcDb3dPolylineVertex
 10
141787.41
 20
469228.7776
 30
3.6142
 70
32
  0
SEQEND
  5
129
330
17
100
AcDbEntity
  8
Road
  0
INSERT
  5
131
330
17
100
AcDbEntity
  8
Ground
100
AcDbBlockReference
  2
marxact_point
 10
141805.5463
 20
469251.9023
 30
3.629
  0
TEXT
  5
133
330
17
100
AcDbEntity
  8
polygon_id
100
AcDbText
 10
141805.5463
 20
469251.9023
 30
3.629
 40
0.35
  1
    1-1
 11
141805.5463
 21
469251.9023
 31
3.629
100
AcDbText
 73
2
  0
TEXT
  5
134
330
17
100
AcDbEntity
  8
attributes
100
AcDbText
 10
141805.5463
 20
469252.30230000004
 30
3.629
 40
0.25
  1
    Height=3.6290
 11
141805.5463
 21
469252.30230000004
 31
3.629
100
AcDbText
 73
2
  0
TEXT
  5
135
330
17
100
AcDbEntity
  8
attributes
100
AcDbText
 10
141805.5463
 20
469252.7023
 30
3.629
 40
0.25
  1
    Type=Stone
 11
141805.5463
 21
469252.7023
 31
3.629
100
AcDbText
 73
2
  0
INSERT
  5
137
330
17
100
AcDbEntity
  8
Ground
100
AcDbBlockReference
  2
marxact_point
 10
141801.8848
 20
469254.2934
 30
3.586
  0
TEXT
  5
139
330
17
100
AcDbEntity
  8
polygon_id
100
AcDbText
 10
141801.8848
 20
469254.2934
 30
3.586
 40
0.35
  1
    1-2
 11
141801.8848
 21
469254.2934
 31
3.586
100
AcDbText
 73
2
  0
TEXT
  5
13A
330
17
100
AcDbEntity
  8
attributes
100
AcDbText
 10
141801.8848
 20
469254.69340000005
 30
3.586
 40
0.25
  1
    Height=3.5860
 11
141801.8848
 21
469254.69340000005
 31
3.586
100
AcDbText
 73
2
  0
TEXT
  5
13B
330
17
100
AcDbEntity
  8
attributes
100
AcDbText
 10
141801.8848
 20
469255.0934
 30
3.586
 40
0.25
  1
    Type=Stone
 11
141801.8848
 21
469255.0934
 31
3.586
100
AcDbText
 73
2
  0
INSERT
  5
13D
330
17
100
AcDbEntity
  8
Ground
100
AcDbBlockReference
  2
marxact_point
 10
141787.2767
 20
469231.6781
 30
3.4931
  0
TEXT
  5
13F
330
17
100
AcDbEntity
  8
polygon_id
100
AcDbText
 10
141787.2767
 20
469231.6781
 30
3.4931
 40
0.35
  1
    1-3
 11
141787.2767
 21
469231.6781
 31
3.4931
100
AcDbText
 73
2
  0
TEXT
  5
140
330
17
100
AcDbEntity
  8
attributes
100
AcDbText
 10
141787.2767
 20
469232.07810000004
 30
3.4931
 40
0.25
  1
    Height=3.4931
 11
141787.2767
 21
469232.07810000004
 31
3.4931
100
AcDbText
 73
2
  0
TEXT
  5
141
330
17
100
AcDbEntity
  8
attributes
100
AcDbText
 10
141787.2767
 20
469232.4781
 30
3.4931
 40
0.25
  1
    Type=Stone
 11
141787.2767
 21
469232.4781
 31
3.4931
100
AcDbText
 73
2
  0
INSERT
  5
143
330
17
100
AcDbEntity
  8
Ground
100
AcDbBlockReference
  2
marxact_point
 10
141791.1173
 20
469229.4854
 30
3.5511
  0
TEXT
  5
145
330
17
100
AcDbEntity
  8
polygon_id
100
AcDbText
 10
141791.1173
 20
469229.4854
 30
3.5511
 40
0.35
  1
    1-4
 11
141791.1173
 21
469229.4854
 31
3.5511
100
AcDbText
 73
2
  0
TEXT
  5
146
330
17
100
AcDbEntity
  8
attributes
100
AcDbText
 10
141791.1173
 20
469229.8854
 30
3.5511
 40
0.25
  1
    Height=3.5511
 11
141791.1173
 21
469229.8854
 31
3.5511
100
AcDbText
 73
2
  0
TEXT
  5
147
330
17
100
AcDbEntity
  8
attributes
100
AcDbText
 10
141791.1173
 20
469230.2854
 30
3.5511
 40
0.25
  1
    Type=Stone
 11
141791.1173
 21
469230.2854
 31
3.5511
100
AcDbText
 73
2
  0
POLYLINE
  5
148
330
17
100
AcDbEntity
  8
Ground
100
AcDb3dPolyline
 66
1
 70
9
  0
VERTEX
  5
14A
330
17
100
AcDbEntity
  8
Ground
100
AcDbVertex
100
AcDb3dPolylineVertex
 10
141805.5463
 20
469251.9023
 30
3.629
 70
32
  0
VERTEX
  5
14B
330
17
100
AcDbEntity
  8
Ground
100
AcDbVertex
100
AcDb3dPolylineVertex
 10
141801.8848
 20
469254.2934
 30
3.586
 70
32
  0
VERTEX
  5
14C
330
17
100
AcDbEntity
  8
Ground
100
AcDbVertex
100
AcDb3dPolylineVertex
 10
141787.2767
 20
469231.6781
 30
3.4931
 70
32
  0
VERTEX
  5
14D
330
17
100
AcDbEntity
  8
Ground
100
AcDbVertex
100
AcDb3dPolylineVertex
 10
141791.1173
 20
469229.4854
 30
3.5511
 70
32
  0
SEQEND
  5
149
330
17
100
AcDbEntity
  8
Ground
  0
ENDSEC
  0
SECTION
  2
OBJECTS
  0
DICTIONARY
  5
A
330
0
100
AcDbDictionary
281
1
  3
ACAD_SCALELIST
350
14
  3
ACAD_MATERIAL
350
E
  3
ACAD_PLOTSETTINGS
350
11
  3
ACAD_COLOR
350
B
  3
ACAD_VISUALSTYLE
350
16
  3
ACAD_PLOTSTYLENAME
350
12
  3
ACAD_GROUP
350
C
  3
ACAD_MLEADERSTYLE
350
F
  3
ACAD_TABLESTYLE
350
15
  3
ACAD_LAYOUT
350
D
  3
ACAD_MLINESTYLE
350
10
  0
DICTIONARY
  5
B
330
A
100
AcDbDictionary
281
1
  0
DICTIONARY
  5
C
330
A
100
AcDbDictionary
281
1
  3
*A8
350
68
  3
*A9
350
70
  3
*A22
350
D2
  3
*A28
350
FD
  3
*A1
350
37
  3
*A2
350
3E
  3
*A3
350
45
  3
*A4
350
4C
  3
*A5
350
53
  3
*A6
350
5A
  3
*A7
350
61
  3
*A36
350
13C
  3
*A37
350
142
  3
*A34
350
130
  3
*A35
350
136
  3
*A32
350
11C
  3
*A27
350
F7
  3
*A30
350
110
  3
*A31
350
116
  3
*A26
350
F1
  3
*A29
350
10A
  3
*A24
350
E5
  3
*A18
350
B3
  3
*A19
350
C0
  3
*A14
350
9B
  3
*A20
350
C6
  3
*A16
350
A7
  3
*A17
350
AD
  3
*A10
350
77
  3
*A11
350
7E
  3
*A12
350
85
  3
*A13
350
8C
  3
*A25
350
EB
  3
*A21
350
CC
  3
*A15
350
A1
  3
*A23
350
D8
  3
*A33
350
122
  0
DICTIONARY
  5
D
330
A
100
AcDbDictionary
281
1
  3
Layout1
350
1E
  3
Model
350
1A
  0
DICTIONARY
  5
E
330
A
100
AcDbDictionary
281
1
  3
Global
350
21
  3
ByLayer
350
20
  3
ByBlock
350
1F
  0
DICTIONARY
  5
F
330
A
100
AcDbDictionary
281
1
  3
Standard
350
2C
  0
DICTIONARY
  5
10
330
A
100
AcDbDictionary
281
1
  3
Standard
350
22
  0
DICTIONARY
  5
11
330
A
100
AcDbDictionary
281
1
  0
ACDBDICTIONARYWDFLT
  5
12
330
A
100
AcDbDictionary
281
1
  3
Normal
350
13
100
AcDbDictionaryWithDefault
340
13
  0
ACDBPLACEHOLDER
  5
13
330
12
  0
DICTIONARY
  5
14
330
A
100
AcDbDictionary
281
1
  0
DICTIONARY
  5
15
330
A
100
AcDbDictionary
281
1
  0
DICTIONARY
  5
16
330
A
100
AcDbDictionary
281
1
  0
LAYOUT
  5
1A
330
D
100
AcDbPlotSettings
  1

  2
Adobe PDF
  4
A4
  6

 40
3.175
 41
3.175
 42
3.175
 43
3.175
 44
209.91
 45
297.03
 46
0.0
 47
0.0
 48
0.0
 49
0.0
140
0.0
141
0.0
142
1.0
143
1.0
 70
688
 72
0
 73
1
 74
5
  7

 75
16
 76
0
 77
2
 78
300
147
1.0
148
0.0
149
0.0
100
AcDbLayout
  1
Model
 70
1
 71
0
 10
-3.175
 20
-3.175
 11
293.857
 21
206.735
 12
0.0
 22
0.0
 32
0.0
 14
29.068
 24
20.356
 34
0.0
 15
261.614
 25
183.204
 35
0.0
146
0.0
 13
0.0
 23
0.0
 33
0.0
 16
1.0
 26
0.0
 36
0.0
 17
0.0
 27
1.0
 37
0.0
 76
1
330
17
  0
LAYOUT
  5
1E
330
D
100
AcDbPlotSettings
  1

  2
Adobe PDF
  4
A4
  6

 40
3.175
 41
3.175
 42
3.175
 43
3.175
 44
209.91
 45
297.03
 46
0.0
 47
0.0
 48
0.0
 49
0.0
140
0.0
141
0.0
142
1.0
143
1.0
 70
688
 72
0
 73
1
 74
5
  7

 75
16
 76
0
 77
2
 78
300
147
1.0
148
0.0
149
0.0
100
AcDbLayout
  1
Layout1
 70
1
 71
1
 10
-3.175
 20
-3.175
 11
293.857
 21
206.735
 12
0.0
 22
0.0
 32
0.0
 14
29.068
 24
20.356
 34
0.0
 15
261.614
 25
183.204
 35
0.0
146
0.0
 13
0.0
 23
0.0
 33
0.0
 16
1.0
 26
0.0
 36
0.0
 17
0.0
 27
1.0
 37
0.0
 76
1
330
1B
  0
MATERIAL
  5
1F
102
{ACAD_REACTORS
330
E
102
}
330
E
100
AcDbMaterial
  1
ByBlock
  2

 70
0
 40
1.0
 71
1
 41
1.0
 91
-1023410177
 42
1.0
 72
1
  3

 73
1
 74
1
 75
1
 44
0.5
 73
0
 45
1.0
 46
1.0
 77
1
  4

 78
1
 79
1
170
1
 48
1.0
171
1
  6

172
1
173
1
174
1
140
1.0
141
1.0
175
1
  7

176
1
177
1
178
1
143
1.0
179
1
  8

270
1
271
1
272
1
145
1.0
146
1.0
273
1
  9

274
1
275
1
276
1
 42
1.0
 72
1
  3

 73
1
 74
1
 75
1
 94
63
  0
MATERIAL
  5
20
102
{ACAD_REACTORS
330
E
102
}
330
E
100
AcDbMaterial
  1
ByLayer
  2

 70
0
 40
1.0
 71
1
 41
1.0
 91
-1023410177
 42
1.0
 72
1
  3

 73
1
 74
1
 75
1
 44
0.5
 73
0
 45
1.0
 46
1.0
 77
1
  4

 78
1
 79
1
170
1
 48
1.0
171
1
  6

172
1
173
1
174
1
140
1.0
141
1.0
175
1
  7

176
1
177
1
178
1
143
1.0
179
1
  8

270
1
271
1
272
1
145
1.0
146
1.0
273
1
  9

274
1
275
1
276
1
 42
1.0
 72
1
  3

 73
1
 74
1
 75
1
 94
63
  0
MATERIAL
  5
21
102
{ACAD_REACTORS
330
E
102
}
330
E
100
AcDbMaterial
  1
Global
  2

 70
0
 40
1.0
 71
1
 41
1.0
 91
-1023410177
 42
1.0
 72
1
  3

 73
1
 74
1
 75
1
 44
0.5
 73
0
 45
1.0
 46
1.0
 77
1
  4

 78
1
 79
1
170
1
 48
1.0
171
1
  6

172
1
173
1
174
1
140
1.0
141
1.0
175
1
  7

176
1
177
1
178
1
143
1.0
179
1
  8

270
1
271
1
272
1
145
1.0
146
1.0
273
1
  9

274
1
275
1
276
1
 42
1.0
 72
1
  3

 73
1
 74
1
 75
1
 94
63
  0
MLINESTYLE
  5
22
102
{ACAD_REACTORS
330
10
102
}
330
10
100
AcDbMlineStyle
 62
256
  2
Standard
 52
90.0
  3

 70
0
 51
90.0
 71
2
 49
0.5
 62
256
  6
BYLAYER
 49
-0.5
 62
256
  6
BYLAYER
  0
MLEADERSTYLE
  5
2C
102
{ACAD_REACTORS
330
F
102
}
330
F
100
AcDbMLeaderStyle
177
0
 42
2.0
290
1
296
0
172
0
142
1.0
295
0
 90
2
272
9
294
1
 40
0.0
176
0
 45
4.0
174
1
 49
0.0
 47
1.0
140
1.0
 46
4.0
179
2
 43
8.0
 93
-1056964608
272
9
291
1
 94
-1056964608
  3
Standard
175
1
143
3.75
 41
0.0
342
29
300

292
0
173
1
141
0.0
271
0
 91
-1056964608
171
1
 44
4.0
297
0
178
1
170
2
 92
-2
  0
GROUP
  5
37
102
{ACAD_REACTORS
330
C
102
}
330
C
100
AcDbGroup
300

 70
1
 71
1
340
38
340
3A
340
3B
340
3C
340
3D
  0
GROUP
  5
3E
102
{ACAD_REACTORS
330
C
102
}
330
C
100
AcDbGroup
300

 70
1
 71
1
340
3F
340
41
340
42
340
43
340
44
  0
GROUP
  5
45
102
{ACAD_REACTORS
330
C
102
}
330
C
100
AcDbGroup
300

 70
1
 71
1
340
46
340
48
340
49
340
4A
340
4B
  0
GROUP
  5
4C
102
{ACAD_REACTORS
330
C
102
}
330
C
100
AcDbGroup
300

 70
1
 71
1
340
4D
340
4F
340
50
340
51
340
52
  0
GROUP
  5
53
102
{ACAD_REACTORS
330
C
102
}
330
C
100
AcDbGroup
300

 70
1
 71
1
340
54
340
56
340
57
340
58
340
59
  0
GROUP
  5
5A
102
{ACAD_REACTORS
330
C
102
}
330
C
100
AcDbGroup
300

 70
1
 71
1
340
5B
340
5D
340
5E
340
5F
340
60
  0
GROUP
  5
61
102
{ACAD_REACTORS
330
C
102
}
330
C
100
AcDbGroup
300

 70
1
 71
1
340
62
340
64
340
65
340
66
340
67
  0
GROUP
  5
68
102
{ACAD_REACTORS
330
C
102
}
330
C
100
AcDbGroup
300

 70
1
 71
1
340
69
340
6B
340
6C
340
6D
340
6E
  0
GROUP
  5
70
102
{ACAD_REACTORS
330
C
102
}
330
C
100
AcDbGroup
300

 70
1
 71
1
340
71
340
73
340
74
340
75
340
76
  0
GROUP
  5
77
102
{ACAD_REACTORS
330
C
102
}
330
C
100
AcDbGroup
300

 70
1
 71
1
340
78
340
7A
340
7B
340
7C
340
7D
  0
GROUP
  5
7E
102
{ACAD_REACTORS
330
C
102
}
330
C
100
AcDbGroup
300

 70
1
 71
1
340
7F
340
81
340
82
340
83
340
84
  0
GROUP
  5
85
102
{ACAD_REACTORS
330
C
102
}
330
C
100
AcDbGroup
300

 70
1
 71
1
340
86
340
88
340
89
340
8A
340
8B
  0
GROUP
  5
8C
102
{ACAD_REACTORS
330
C
102
}
330
C
100
AcDbGroup
300

 70
1
 71
1
340
8D
340
8F
340
90
340
91
340
92
  0
GROUP
  5
9B
102
{ACAD_REACTORS
330
C
102
}
330
C
100
AcDbGroup
300

 70
1
 71
1
340
9C
340
9E
340
9F
340
A0
  0
GROUP
  5
A1
102
{ACAD_REACTORS
330
C
102
}
330
C
100
AcDbGroup
300

 70
1
 71
1
340
A2
340
A4
340
A5
340
A6
  0
GROUP
  5
A7
102
{ACAD_REACTORS
330
C
102
}
330
C
100
AcDbGroup
300

 70
1
 71
1
340
A8
340
AA
340
AB
340
AC
  0
GROUP
  5
AD
102
{ACAD_REACTORS
330
C
102
}
330
C
100
AcDbGroup
300

 70
1
 71
1
340
AE
340
B0
340
B1
340
B2
  0
GROUP
  5
B3
102
{ACAD_REACTORS
330
C
102
}
330
C
100
AcDbGroup
300

 70
1
 71
1
340
B4
340
B6
340
B7
340
B8
  0
GROUP
  5
C0
102
{ACAD_REACTORS
330
C
102
}
330
C
100
AcDbGroup
300

 70
1
 71
1
340
C1
340
C3
340
C4
340
C5
  0
GROUP
  5
C6
102
{ACAD_REACTORS
330
C
102
}
330
C
100
AcDbGroup
300

 70
1
 71
1
340
C7
340
C9
340
CA
340
CB
  0
GROUP
  5
CC
102
{ACAD_REACTORS
330
C
102
}
330
C
100
AcDbGroup
300

 70
1
 71
1
340
CD
340
CF
340
D0
340
D1
  0
GROUP
  5
D2
102
{ACAD_REACTORS
330
C
102
}
330
C
100
AcDbGroup
300

 70
1
 71
1
340
D3
340
D5
340
D6
340
D7
  0
GROUP
  5
D8
102
{ACAD_REACTORS
330
C
102
}
330
C
100
AcDbGroup
300

 70
1
 71
1
340
D9
340
DB
340
DC
340
DD
  0
GROUP
  5
E5
102
{ACAD_REACTORS
330
C
102
}
330
C
100
AcDbGroup
300

 70
1
 71
1
340
E6
340
E8
340
E9
340
EA
  0
GROUP
  5
EB
102
{ACAD_REACTORS
330
C
102
}
330
C
100
AcDbGroup
300

 70
1
 71
1
340
EC
340
EE
340
EF
340
F0
  0
GROUP
  5
F1
102
{ACAD_REACTORS
330
C
102
}
330
C
100
AcDbGroup
300

 70
1
 71
1
340
F2
340
F4
340
F5
340
F6
  0
GROUP
  5
F7
102
{ACAD_REACTORS
330
C
102
}
330
C
100
AcDbGroup
300

 70
1
 71
1
340
F8
340
FA
340
FB
340
FC
  0
GROUP
  5
FD
102
{ACAD_REACTORS
330
C
102
}
330
C
100
AcDbGroup
300

 70
1
 71
1
340
FE
340
100
340
101
340
102
  0
GROUP
  5
10A
102
{ACAD_REACTORS
330
C
102
}
330
C
100
AcDbGroup
300

 70
1
 71
1
340
10B
340
10D
340
10E
340
10F
  0
GROUP
  5
110
102
{ACAD_REACTORS
330
C
102
}
330
C
100
AcDbGroup
300

 70
1
 71
1
340
111
340
113
340
114
340
115
  0
GROUP
  5
116
102
{ACAD_REACTORS
330
C
102
}
330
C
100
AcDbGroup
300

 70
1
 71
1
340
117
340
119
340
11A
340
11B
  0
GROUP
  5
11C
102
{ACAD_REACTORS
330
C
102
}
330
C
100
AcDbGroup
300

 70
1
 71
1
340
11D
340
11F
340
120
340
121
  0
GROUP
  5
122
102
{ACAD_REACTORS
330
C
102
}
330
C
100
AcDbGroup
300

 70
1
 71
1
340
123
340
125
340
126
340
127
  0
GROUP
  5
130
102
{ACAD_REACTORS
330
C
102
}
330
C
100
AcDbGroup
300

 70
1
 71
1
340
134
340
135
  0
GROUP
  5
136
102
{ACAD_REACTORS
330
C
102
}
330
C
100
AcDbGroup
300

 70
1
 71
1
340
13A
340
13B
  0
GROUP
  5
13C
102
{ACAD_REACTORS
330
C
102
}
330
C
100
AcDbGroup
300

 70
1
 71
1
340
140
340
141
  0
GROUP
  5
142
102
{ACAD_REACTORS
330
C
102
}
330
C
100
AcDbGroup
300

 70
1
 71
1
340
146
340
147
  0
ENDSEC
  0
EOF
